ISO-10303-21;
HEADER;
FILE_DESCRIPTION (( 'STEP AP203' ),
    '1' );
FILE_NAME ('Q-OZHWP-R2-25.4-532-M.STEP',
    '2020-12-22T09:19:14',
    ( '' ),
    ( '' ),
    'SwSTEP 2.0',
    'SolidWorks 2020',
    '' );
FILE_SCHEMA (( 'CONFIG_CONTROL_DESIGN' ));
ENDSEC;

DATA;
#1 = CARTESIAN_POINT ( 'NONE',  ( -3.000000000000001776, 0.000000000000000000, 0.000000000000000000 ) ) ;
#2 = EDGE_CURVE ( 'NONE', #64, #23, #18, .T. ) ;
#3 = ORIENTED_EDGE ( 'NONE', *, *, #2, .F. ) ;
#4 = CYLINDRICAL_SURFACE ( 'NONE', #159, 12.69999999999999929 ) ;
#5 = APPROVAL_DATE_TIME ( #116, #110 ) ;
#6 = PERSON_AND_ORGANIZATION ( #49, #135 ) ;
#7 = ADVANCED_FACE ( 'NONE', ( #71 ), #161, .F. ) ;
#8 = CIRCLE ( 'NONE', #105, 12.69999999999999929 ) ;
#9 = LOCAL_TIME ( 17, 19, 14.00000000000000000, #24 ) ;
#10 = PERSON_AND_ORGANIZATION_ROLE ( 'creator' ) ;
#11 = PRODUCT_RELATED_PRODUCT_CATEGORY ( 'detail', '', ( #66 ) ) ;
#12 = EDGE_LOOP ( 'NONE', ( #3, #30, #147, #129 ) ) ;
#13 = ADVANCED_FACE ( 'NONE', ( #59 ), #56, .T. ) ;
#14 = CARTESIAN_POINT ( 'NONE',  ( 3.000000000000001776, 0.000000000000000000, 0.000000000000000000 ) ) ;
#15 = DIRECTION ( 'NONE',  ( 1.000000000000000000, 0.000000000000000000, 0.000000000000000000 ) ) ;
#16 = LOCAL_TIME ( 17, 19, 14.00000000000000000, #60 ) ;
#17 = CARTESIAN_POINT ( 'NONE',  ( -3.000000000000000000, 0.000000000000000000, 12.69999999999999929 ) ) ;
#18 = LINE ( 'NONE', #86, #139 ) ;
#19 = CC_DESIGN_DATE_AND_TIME_ASSIGNMENT ( #74, #171, ( #103 ) ) ;
#20 = DIRECTION ( 'NONE',  ( -1.000000000000000000, -0.000000000000000000, -0.000000000000000000 ) ) ;
#21 = DIRECTION ( 'NONE',  ( 0.000000000000000000, 0.000000000000000000, 1.000000000000000000 ) ) ;
#22 = DIRECTION ( 'NONE',  ( 0.000000000000000000, 0.000000000000000000, 1.000000000000000000 ) ) ;
#23 = VERTEX_POINT ( 'NONE', #107 ) ;
#24 = COORDINATED_UNIVERSAL_TIME_OFFSET ( 8, 0, .AHEAD. ) ;
#25 = AXIS2_PLACEMENT_3D ( 'NONE', #166, #21, #15 ) ;
#26 = EDGE_CURVE ( 'NONE', #52, #23, #96, .T. ) ;
#27 = DIRECTION ( 'NONE',  ( 0.000000000000000000, 0.000000000000000000, 1.000000000000000000 ) ) ;
#28 = CARTESIAN_POINT ( 'NONE',  ( -3.000000000000001776, 0.000000000000000000, 0.000000000000000000 ) ) ;
#29 = CIRCLE ( 'NONE', #39, 12.69999999999999929 ) ;
#30 = ORIENTED_EDGE ( 'NONE', *, *, #172, .T. ) ;
#31 = DIRECTION ( 'NONE',  ( 0.000000000000000000, 0.000000000000000000, 1.000000000000000000 ) ) ;
#32 = SECURITY_CLASSIFICATION ( '', '', #51 ) ;
#33 = DATE_TIME_ROLE ( 'classification_date' ) ;
#34 = CALENDAR_DATE ( 2020, 22, 12 ) ;
#35 = SHAPE_DEFINITION_REPRESENTATION ( #158, #173 ) ;
#36 = PERSON_AND_ORGANIZATION ( #49, #135 ) ;
#37 = EDGE_CURVE ( 'NONE', #23, #52, #61, .T. ) ;
#38 = PERSON_AND_ORGANIZATION_ROLE ( 'design_owner' ) ;
#39 = AXIS2_PLACEMENT_3D ( 'NONE', #108, #45, #97 ) ;
#40 = CC_DESIGN_APPROVAL ( #132, ( #103 ) ) ;
#41 = ORIENTED_EDGE ( 'NONE', *, *, #2, .T. ) ;
#42 = ORIENTED_EDGE ( 'NONE', *, *, #26, .T. ) ;
#43 = APPROVAL_PERSON_ORGANIZATION ( #62, #78, #90 ) ;
#44 = CARTESIAN_POINT ( 'NONE',  ( -3.000000000000000888, 12.69999999999999929, 0.000000000000000000 ) ) ;
#45 = DIRECTION ( 'NONE',  ( -1.000000000000000000, -0.000000000000000000, -0.000000000000000000 ) ) ;
#46 = CC_DESIGN_PERSON_AND_ORGANIZATION_ASSIGNMENT ( #101, #10, ( #141 ) ) ;
#47 =( NAMED_UNIT ( * ) SI_UNIT ( $, .STERADIAN. ) SOLID_ANGLE_UNIT ( ) );
#48 = CALENDAR_DATE ( 2020, 22, 12 ) ;
#49 = PERSON ( 'UNSPECIFIED', 'UNSPECIFIED', 'UNSPECIFIED', ('UNSPECIFIED'), ('UNSPECIFIED'), ('UNSPECIFIED') ) ;
#50 = APPROVAL_ROLE ( '' ) ;
#51 = SECURITY_CLASSIFICATION_LEVEL ( 'unclassified' ) ;
#52 = VERTEX_POINT ( 'NONE', #125 ) ;
#53 = CC_DESIGN_PERSON_AND_ORGANIZATION_ASSIGNMENT ( #128, #91, ( #141 ) ) ;
#54 = CC_DESIGN_APPROVAL ( #78, ( #32 ) ) ;
#55 = EDGE_LOOP ( 'NONE', ( #174, #76 ) ) ;
#56 = CYLINDRICAL_SURFACE ( 'NONE', #75, 12.69999999999999929 ) ;
#57 = DIRECTION ( 'NONE',  ( 0.000000000000000000, 0.000000000000000000, 1.000000000000000000 ) ) ;
#58 = FACE_OUTER_BOUND ( 'NONE', #12, .T. ) ;
#59 = FACE_OUTER_BOUND ( 'NONE', #157, .T. ) ;
#60 = COORDINATED_UNIVERSAL_TIME_OFFSET ( 8, 0, .AHEAD. ) ;
#61 = CIRCLE ( 'NONE', #134, 12.69999999999999929 ) ;
#62 = PERSON_AND_ORGANIZATION ( #49, #135 ) ;
#63 = DATE_AND_TIME ( #109, #16 ) ;
#64 = VERTEX_POINT ( 'NONE', #85 ) ;
#65 = ORIENTED_EDGE ( 'NONE', *, *, #26, .F. ) ;
#66 = PRODUCT ( 'Q-OZHWP-R2-25.4-532-M', 'Q-OZHWP-R2-25.4-532-M', '', ( #163 ) ) ;
#67 = LOCAL_TIME ( 17, 19, 14.00000000000000000, #170 ) ;
#68 = DIRECTION ( 'NONE',  ( -1.000000000000000000, -0.000000000000000000, -0.000000000000000000 ) ) ;
#69 =( LENGTH_UNIT ( ) NAMED_UNIT ( * ) SI_UNIT ( .MILLI., .METRE. ) );
#70 = DIRECTION ( 'NONE',  ( 0.000000000000000000, 0.000000000000000000, -1.000000000000000000 ) ) ;
#71 = FACE_OUTER_BOUND ( 'NONE', #113, .T. ) ;
#72 = CARTESIAN_POINT ( 'NONE',  ( 3.000000000000001776, 0.000000000000000000, 12.69999999999999929 ) ) ;
#73 = COORDINATED_UNIVERSAL_TIME_OFFSET ( 8, 0, .AHEAD. ) ;
#74 = DATE_AND_TIME ( #155, #9 ) ;
#75 = AXIS2_PLACEMENT_3D ( 'NONE', #95, #20, #27 ) ;
#76 = ORIENTED_EDGE ( 'NONE', *, *, #172, .F. ) ;
#77 = ADVANCED_FACE ( 'NONE', ( #137 ), #167, .F. ) ;
#78 = APPROVAL ( #151, 'UNSPECIFIED' ) ;
#79 = CARTESIAN_POINT ( 'NONE',  ( -3.000000000000000000, 0.000000000000000000, 0.000000000000000000 ) ) ;
#80 = AXIS2_PLACEMENT_3D ( 'NONE', #99, #148, #121 ) ;
#81 = LOCAL_TIME ( 17, 19, 14.00000000000000000, #138 ) ;
#82 = DIRECTION ( 'NONE',  ( -1.000000000000000000, -0.000000000000000000, -0.000000000000000000 ) ) ;
#83 = APPLICATION_PROTOCOL_DEFINITION ( 'international standard', 'config_control_design', 1994, #152 ) ;
#84 = MANIFOLD_SOLID_BREP ( 'Ðý×', #115 ) ;
#85 = CARTESIAN_POINT ( 'NONE',  ( 3.000000000000001776, 1.555301434917138433E-15, -12.69999999999999929 ) ) ;
#86 = CARTESIAN_POINT ( 'NONE',  ( -3.000000000000000000, 1.555301434917138433E-15, -12.69999999999999929 ) ) ;
#87 = DIRECTION ( 'NONE',  ( -1.000000000000000000, -0.000000000000000000, -0.000000000000000000 ) ) ;
#88 = DATE_AND_TIME ( #34, #81 ) ;
#89 = ORIENTED_EDGE ( 'NONE', *, *, #37, .T. ) ;
#90 = APPROVAL_ROLE ( '' ) ;
#91 = PERSON_AND_ORGANIZATION_ROLE ( 'design_supplier' ) ;
#92 = PERSON_AND_ORGANIZATION ( #49, #135 ) ;
#93 = CALENDAR_DATE ( 2020, 22, 12 ) ;
#94 = LOCAL_TIME ( 17, 19, 14.00000000000000000, #73 ) ;
#95 = CARTESIAN_POINT ( 'NONE',  ( -3.000000000000000000, 0.000000000000000000, 0.000000000000000000 ) ) ;
#96 = CIRCLE ( 'NONE', #154, 12.69999999999999929 ) ;
#97 = DIRECTION ( 'NONE',  ( 0.000000000000000000, 0.000000000000000000, 1.000000000000000000 ) ) ;
#98 = VERTEX_POINT ( 'NONE', #72 ) ;
#99 = CARTESIAN_POINT ( 'NONE',  ( 3.000000000000000888, 12.69999999999999929, 0.000000000000000000 ) ) ;
#100 = APPROVAL_PERSON_ORGANIZATION ( #120, #132, #168 ) ;
#101 = PERSON_AND_ORGANIZATION ( #49, #135 ) ;
#102 = PERSON_AND_ORGANIZATION_ROLE ( 'classification_officer' ) ;
#103 = PRODUCT_DEFINITION ( 'UNKNOWN', '', #141, #127 ) ;
#104 = VECTOR ( 'NONE', #87, 1000.000000000000000 ) ;
#105 = AXIS2_PLACEMENT_3D ( 'NONE', #14, #122, #31 ) ;
#106 = DIRECTION ( 'NONE',  ( -1.000000000000000000, -0.000000000000000000, -0.000000000000000000 ) ) ;
#107 = CARTESIAN_POINT ( 'NONE',  ( -3.000000000000001776, 1.555301434917138433E-15, -12.69999999999999929 ) ) ;
#108 = CARTESIAN_POINT ( 'NONE',  ( 3.000000000000001776, 0.000000000000000000, 0.000000000000000000 ) ) ;
#109 = CALENDAR_DATE ( 2020, 22, 12 ) ;
#110 = APPROVAL ( #112, 'UNSPECIFIED' ) ;
#111 = CC_DESIGN_SECURITY_CLASSIFICATION ( #32, ( #141 ) ) ;
#112 = APPROVAL_STATUS ( 'not_yet_approved' ) ;
#113 = EDGE_LOOP ( 'NONE', ( #42, #89 ) ) ;
#114 = DATE_AND_TIME ( #93, #67 ) ;
#115 = CLOSED_SHELL ( 'NONE', ( #13, #160, #77, #7 ) ) ;
#116 = DATE_AND_TIME ( #48, #94 ) ;
#117 = UNCERTAINTY_MEASURE_WITH_UNIT (LENGTH_MEASURE( 1.000000000000000082E-05 ), #69, 'distance_accuracy_value', 'NONE');
#118 = CC_DESIGN_APPROVAL ( #110, ( #141 ) ) ;
#119 = APPLICATION_CONTEXT ( 'configuration controlled 3d designs of mechanical parts and assemblies' ) ;
#120 = PERSON_AND_ORGANIZATION ( #49, #135 ) ;
#121 = DIRECTION ( 'NONE',  ( -0.000000000000000000, 0.000000000000000000, 1.000000000000000000 ) ) ;
#122 = DIRECTION ( 'NONE',  ( -1.000000000000000000, -0.000000000000000000, -0.000000000000000000 ) ) ;
#123 = DIRECTION ( 'NONE',  ( 0.000000000000000000, 0.000000000000000000, 1.000000000000000000 ) ) ;
#124 = EDGE_CURVE ( 'NONE', #98, #64, #8, .T. ) ;
#125 = CARTESIAN_POINT ( 'NONE',  ( -3.000000000000001776, 0.000000000000000000, 12.69999999999999929 ) ) ;
#126 = PERSON_AND_ORGANIZATION_ROLE ( 'creator' ) ;
#127 = DESIGN_CONTEXT ( 'detailed design', #119, 'design' ) ;
#128 = PERSON_AND_ORGANIZATION ( #49, #135 ) ;
#129 = ORIENTED_EDGE ( 'NONE', *, *, #37, .F. ) ;
#130 = APPROVAL_DATE_TIME ( #88, #132 ) ;
#131 = APPLICATION_PROTOCOL_DEFINITION ( 'international standard', 'config_control_design', 1994, #119 ) ;
#132 = APPROVAL ( #149, 'UNSPECIFIED' ) ;
#133 = CC_DESIGN_DATE_AND_TIME_ASSIGNMENT ( #63, #33, ( #32 ) ) ;
#134 = AXIS2_PLACEMENT_3D ( 'NONE', #28, #82, #123 ) ;
#135 = ORGANIZATION ( 'UNSPECIFIED', 'UNSPECIFIED', '' ) ;
#136 = DIRECTION ( 'NONE',  ( 1.000000000000000000, 0.000000000000000000, 0.000000000000000000 ) ) ;
#137 = FACE_OUTER_BOUND ( 'NONE', #55, .T. ) ;
#138 = COORDINATED_UNIVERSAL_TIME_OFFSET ( 8, 0, .AHEAD. ) ;
#139 = VECTOR ( 'NONE', #106, 1000.000000000000000 ) ;
#140 = CC_DESIGN_PERSON_AND_ORGANIZATION_ASSIGNMENT ( #6, #126, ( #103 ) ) ;
#141 = PRODUCT_DEFINITION_FORMATION_WITH_SPECIFIED_SOURCE ( 'ANY', '', #66, .NOT_KNOWN. ) ;
#142 = ORIENTED_EDGE ( 'NONE', *, *, #143, .F. ) ;
#143 = EDGE_CURVE ( 'NONE', #98, #52, #162, .T. ) ;
#144 = DIRECTION ( 'NONE',  ( -1.000000000000000000, -0.000000000000000000, -0.000000000000000000 ) ) ;
#145 = AXIS2_PLACEMENT_3D ( 'NONE', #44, #136, #70 ) ;
#146 =( GEOMETRIC_REPRESENTATION_CONTEXT ( 3 ) GLOBAL_UNCERTAINTY_ASSIGNED_CONTEXT ( ( #117 ) ) GLOBAL_UNIT_ASSIGNED_CONTEXT ( ( #69, #165, #47 ) ) REPRESENTATION_CONTEXT ( 'NONE', 'WORKASPACE' ) );
#147 = ORIENTED_EDGE ( 'NONE', *, *, #143, .T. ) ;
#148 = DIRECTION ( 'NONE',  ( -1.000000000000000000, 0.000000000000000000, -0.000000000000000000 ) ) ;
#149 = APPROVAL_STATUS ( 'not_yet_approved' ) ;
#150 = PERSON_AND_ORGANIZATION ( #49, #135 ) ;
#151 = APPROVAL_STATUS ( 'not_yet_approved' ) ;
#152 = APPLICATION_CONTEXT ( 'configuration controlled 3d designs of mechanical parts and assemblies' ) ;
#153 = APPROVAL_DATE_TIME ( #114, #78 ) ;
#154 = AXIS2_PLACEMENT_3D ( 'NONE', #1, #144, #22 ) ;
#155 = CALENDAR_DATE ( 2020, 22, 12 ) ;
#156 = CC_DESIGN_PERSON_AND_ORGANIZATION_ASSIGNMENT ( #92, #38, ( #66 ) ) ;
#157 = EDGE_LOOP ( 'NONE', ( #175, #41, #65, #142 ) ) ;
#158 = PRODUCT_DEFINITION_SHAPE ( 'NONE', 'NONE',  #103 ) ;
#159 = AXIS2_PLACEMENT_3D ( 'NONE', #79, #68, #57 ) ;
#160 = ADVANCED_FACE ( 'NONE', ( #58 ), #4, .T. ) ;
#161 = PLANE ( 'NONE',  #145 ) ;
#162 = LINE ( 'NONE', #17, #104 ) ;
#163 = MECHANICAL_CONTEXT ( 'NONE', #152, 'mechanical' ) ;
#164 = CC_DESIGN_PERSON_AND_ORGANIZATION_ASSIGNMENT ( #150, #102, ( #32 ) ) ;
#165 =( NAMED_UNIT ( * ) PLANE_ANGLE_UNIT ( ) SI_UNIT ( $, .RADIAN. ) );
#166 = CARTESIAN_POINT ( 'NONE',  ( 0.000000000000000000, 0.000000000000000000, 0.000000000000000000 ) ) ;
#167 = PLANE ( 'NONE',  #80 ) ;
#168 = APPROVAL_ROLE ( '' ) ;
#169 = APPROVAL_PERSON_ORGANIZATION ( #36, #110, #50 ) ;
#170 = COORDINATED_UNIVERSAL_TIME_OFFSET ( 8, 0, .AHEAD. ) ;
#171 = DATE_TIME_ROLE ( 'creation_date' ) ;
#172 = EDGE_CURVE ( 'NONE', #64, #98, #29, .T. ) ;
#173 = ADVANCED_BREP_SHAPE_REPRESENTATION ( 'Q-OZHWP-R2-25.4-532-M', ( #84, #25 ), #146 ) ;
#174 = ORIENTED_EDGE ( 'NONE', *, *, #124, .F. ) ;
#175 = ORIENTED_EDGE ( 'NONE', *, *, #124, .T. ) ;
ENDSEC;
END-ISO-10303-21;
